ISO-10303-21;
HEADER;
FILE_DESCRIPTION(('CATIA V5 STEP Exchange'),'2;1');

FILE_NAME('C:\\Users\\Astroboy\\Desktop\\RIDIX\\work\\RDCO102.1995.stp','2017-03-07T15:47:57+00:00',('none'),('none'),'CATIA Version 5 Release 19 GA (IN-10)','CATIA V5 STEP AP203','none');

FILE_SCHEMA(('CONFIG_CONTROL_DESIGN'));

ENDSEC;
/* file written by CATIA V5R19 */
DATA;
#5=PRODUCT('RDCO102.1995','','COLONNA GUIDA\X2\000D\X0\\X2\000A\X0\SCORRIMENTI EUROPE\X2\000D\X0\\X2\000A\X0\',(#2)) ;
#1=APPLICATION_CONTEXT('configuration controlled 3D design of mechanical parts and assemblies') ;
#14=PRODUCT_DEFINITION('',' ',#6,#3) ;
#16=SECURITY_CLASSIFICATION(' ',' ',#15) ;
#15=SECURITY_CLASSIFICATION_LEVEL('unclassified') ;
#47=CARTESIAN_POINT(' ',(0.,0.,0.)) ;
#51=CARTESIAN_POINT('Line Origine',(0.,0.,0.)) ;
#55=CARTESIAN_POINT('Limit',(0.,0.,0.)) ;
#56=CARTESIAN_POINT('Limit',(20.,0.,0.)) ;
#63=CARTESIAN_POINT('Line Origine',(0.,0.,0.)) ;
#67=CARTESIAN_POINT('Limit',(0.,0.,0.)) ;
#68=CARTESIAN_POINT('Limit',(0.,20.,0.)) ;
#72=CARTESIAN_POINT('Line Origine',(0.,0.,0.)) ;
#76=CARTESIAN_POINT('Limit',(0.,0.,0.)) ;
#77=CARTESIAN_POINT('Limit',(0.,0.,20.)) ;
#81=CARTESIAN_POINT('Punto.4',(0.,0.,0.)) ;
#83=CARTESIAN_POINT('Axis2P3D Location',(0.,0.,75.)) ;
#88=CARTESIAN_POINT('Axis2P3D Location',(0.,0.,69.8038475773)) ;
#92=CARTESIAN_POINT('Vertex',(-8.33703433796,4.55454261674,69.8038475773)) ;
#94=CARTESIAN_POINT('Vertex',(8.33703433796,-4.55454261674,69.8038475773)) ;
#97=CARTESIAN_POINT('Line Origine',(-7.02066049512,3.83540430883,72.4019237886)) ;
#101=CARTESIAN_POINT('Vertex',(-5.70428665229,3.11626600093,75.)) ;
#104=CARTESIAN_POINT('Axis2P3D Location',(0.,0.,75.)) ;
#108=CARTESIAN_POINT('Vertex',(5.70428665229,-3.11626600093,75.)) ;
#111=CARTESIAN_POINT('Line Origine',(7.02066049512,-3.83540430883,72.4019237886)) ;
#123=CARTESIAN_POINT('Axis2P3D Location',(0.,0.,69.8038475773)) ;
#128=CARTESIAN_POINT('Axis2P3D Location',(0.,0.,75.)) ;
#140=CARTESIAN_POINT('Axis2P3D Location',(-6.5,0.,75.)) ;
#150=CARTESIAN_POINT('Axis2P3D Location',(0.,0.,27.5)) ;
#155=CARTESIAN_POINT('Line Origine',(-8.33703433796,4.55454261674,24.9019237886)) ;
#159=CARTESIAN_POINT('Vertex',(-8.33703433796,4.55454261674,-19.5)) ;
#162=CARTESIAN_POINT('Line Origine',(8.33703433796,-4.55454261674,24.9019237886)) ;
#166=CARTESIAN_POINT('Vertex',(8.33703433796,-4.55454261674,-19.5)) ;
#169=CARTESIAN_POINT('Axis2P3D Location',(0.,0.,-19.5)) ;
#181=CARTESIAN_POINT('Axis2P3D Location',(0.,0.,-19.5)) ;
#193=CARTESIAN_POINT('Axis2P3D Location',(-3.61946785144E-014,0.,-20.)) ;
#198=CARTESIAN_POINT('Axis2P3D Location',(-3.89985970193E-016,-6.66133814775E-016,-20.)) ;
#202=CARTESIAN_POINT('Vertex',(7.89824306347,-4.31482983561,-20.)) ;
#204=CARTESIAN_POINT('Vertex',(-7.89824305701,4.31482984744,-20.)) ;
#207=CARTESIAN_POINT('Axis2P3D Location',(-1.77776475097E-015,4.99600361081E-016,-20.)) ;
#217=CARTESIAN_POINT('Axis2P3D Location',(3.50830475782E-014,8.43769498715E-014,-29.)) ;
#222=CARTESIAN_POINT('Line Origine',(8.11763869749,-4.43468623209,-19.75)) ;
#227=CARTESIAN_POINT('Line Origine',(-8.11763869749,4.43468623209,-19.75)) ;
#239=CARTESIAN_POINT('Axis2P3D Location',(3.95239396767E-014,3.19744231092E-014,-29.)) ;
#52=DIRECTION('Vector Direction',(1.,0.,0.)) ;
#64=DIRECTION('Vector Direction',(0.,1.,0.)) ;
#73=DIRECTION('Vector Direction',(0.,0.,1.)) ;
#84=DIRECTION('Axis2P3D Direction',(0.,0.,-1.)) ;
#85=DIRECTION('Axis2P3D XDirection',(-0.87758256189,0.479425538604,0.)) ;
#89=DIRECTION('Axis2P3D Direction',(0.,0.,-1.)) ;
#98=DIRECTION('Vector Direction',(-0.438791280945,0.239712769302,-0.866025403784)) ;
#105=DIRECTION('Axis2P3D Direction',(0.,0.,-1.)) ;
#112=DIRECTION('Vector Direction',(0.438791280945,-0.239712769302,-0.866025403784)) ;
#124=DIRECTION('Axis2P3D Direction',(0.,0.,-1.)) ;
#129=DIRECTION('Axis2P3D Direction',(0.,0.,-1.)) ;
#141=DIRECTION('Axis2P3D Direction',(0.,0.,-1.)) ;
#142=DIRECTION('Axis2P3D XDirection',(1.,0.,0.)) ;
#151=DIRECTION('Axis2P3D Direction',(0.,0.,-1.)) ;
#152=DIRECTION('Axis2P3D XDirection',(-0.87758256189,0.479425538604,-0.)) ;
#156=DIRECTION('Vector Direction',(0.,0.,-1.)) ;
#163=DIRECTION('Vector Direction',(0.,0.,-1.)) ;
#170=DIRECTION('Axis2P3D Direction',(0.,0.,-1.)) ;
#182=DIRECTION('Axis2P3D Direction',(0.,0.,-1.)) ;
#194=DIRECTION('Axis2P3D Direction',(0.,0.,-1.)) ;
#195=DIRECTION('Axis2P3D XDirection',(1.,0.,0.)) ;
#199=DIRECTION('Axis2P3D Direction',(0.,0.,-1.)) ;
#208=DIRECTION('Axis2P3D Direction',(0.,0.,-1.)) ;
#218=DIRECTION('Axis2P3D Direction',(-3.5527136788E-015,-8.881784197E-015,1.)) ;
#219=DIRECTION('Axis2P3D XDirection',(0.977356362922,-0.211599952402,1.58050681916E-015)) ;
#223=DIRECTION('Vector Direction',(0.620544580564,-0.339005049421,0.707106781187)) ;
#228=DIRECTION('Vector Direction',(-0.620544580564,0.339005049421,0.707106781187)) ;
#240=DIRECTION('Axis2P3D Direction',(-4.4408920985E-015,-3.5527136788E-015,1.)) ;
#241=DIRECTION('Axis2P3D XDirection',(-0.87758256189,0.479425538604,-2.23905132714E-015)) ;
#48=AXIS2_PLACEMENT_3D(' ',#47,$,$) ;
#86=AXIS2_PLACEMENT_3D('Cone Axis2P3D',#83,#84,#85) ;
#90=AXIS2_PLACEMENT_3D('Circle Axis2P3D',#88,#89,$) ;
#106=AXIS2_PLACEMENT_3D('Circle Axis2P3D',#104,#105,$) ;
#125=AXIS2_PLACEMENT_3D('Circle Axis2P3D',#123,#124,$) ;
#130=AXIS2_PLACEMENT_3D('Circle Axis2P3D',#128,#129,$) ;
#143=AXIS2_PLACEMENT_3D('Plane Axis2P3D',#140,#141,#142) ;
#153=AXIS2_PLACEMENT_3D('Cylinder Axis2P3D',#150,#151,#152) ;
#171=AXIS2_PLACEMENT_3D('Circle Axis2P3D',#169,#170,$) ;
#183=AXIS2_PLACEMENT_3D('Circle Axis2P3D',#181,#182,$) ;
#196=AXIS2_PLACEMENT_3D('Plane Axis2P3D',#193,#194,#195) ;
#200=AXIS2_PLACEMENT_3D('Circle Axis2P3D',#198,#199,$) ;
#209=AXIS2_PLACEMENT_3D('Circle Axis2P3D',#207,#208,$) ;
#220=AXIS2_PLACEMENT_3D('Cone Axis2P3D',#217,#218,#219) ;
#242=AXIS2_PLACEMENT_3D('Cone Axis2P3D',#239,#240,#241) ;
#40=PRODUCT_DEFINITION_SHAPE(' ',' ',#14) ;
#59=COMPOSITE_CURVE('Linea.1',(#58),.U.) ;
#71=COMPOSITE_CURVE('Linea.2',(#70),.U.) ;
#80=COMPOSITE_CURVE('Linea.3',(#79),.U.) ;
#58=COMPOSITE_CURVE_SEGMENT(.DISCONTINUOUS.,.T.,#57) ;
#70=COMPOSITE_CURVE_SEGMENT(.DISCONTINUOUS.,.T.,#69) ;
#79=COMPOSITE_CURVE_SEGMENT(.DISCONTINUOUS.,.T.,#78) ;
#31=APPROVAL_PERSON_ORGANIZATION(#25,#21,#19) ;
#25=PERSON_AND_ORGANIZATION(#22,#23) ;
#22=PERSON(' ',' ',' ',$,$,$) ;
#23=ORGANIZATION(' ',' ',' ') ;
#21=APPROVAL(#20,' ') ;
#20=APPROVAL_STATUS('not_yet_approved') ;
#19=APPROVAL_ROLE('APPROVER') ;
#13=DATE_AND_TIME(#11,#12) ;
#12=LOCAL_TIME(16,47,57.,#10) ;
#10=COORDINATED_UNIVERSAL_TIME_OFFSET(0,0,.AHEAD.) ;
#117=ORIENTED_EDGE('',*,*,#96,.F.) ;
#118=ORIENTED_EDGE('',*,*,#103,.T.) ;
#119=ORIENTED_EDGE('',*,*,#110,.T.) ;
#120=ORIENTED_EDGE('',*,*,#115,.F.) ;
#134=ORIENTED_EDGE('',*,*,#127,.F.) ;
#135=ORIENTED_EDGE('',*,*,#115,.T.) ;
#136=ORIENTED_EDGE('',*,*,#132,.T.) ;
#137=ORIENTED_EDGE('',*,*,#103,.F.) ;
#146=ORIENTED_EDGE('',*,*,#110,.F.) ;
#147=ORIENTED_EDGE('',*,*,#132,.F.) ;
#175=ORIENTED_EDGE('',*,*,#161,.T.) ;
#176=ORIENTED_EDGE('',*,*,#96,.T.) ;
#177=ORIENTED_EDGE('',*,*,#168,.F.) ;
#178=ORIENTED_EDGE('',*,*,#173,.F.) ;
#187=ORIENTED_EDGE('',*,*,#168,.T.) ;
#188=ORIENTED_EDGE('',*,*,#127,.T.) ;
#189=ORIENTED_EDGE('',*,*,#161,.F.) ;
#190=ORIENTED_EDGE('',*,*,#185,.F.) ;
#213=ORIENTED_EDGE('',*,*,#206,.T.) ;
#214=ORIENTED_EDGE('',*,*,#211,.T.) ;
#233=ORIENTED_EDGE('',*,*,#226,.T.) ;
#234=ORIENTED_EDGE('',*,*,#185,.T.) ;
#235=ORIENTED_EDGE('',*,*,#231,.F.) ;
#236=ORIENTED_EDGE('',*,*,#206,.F.) ;
#245=ORIENTED_EDGE('',*,*,#231,.T.) ;
#246=ORIENTED_EDGE('',*,*,#173,.T.) ;
#247=ORIENTED_EDGE('',*,*,#226,.F.) ;
#248=ORIENTED_EDGE('',*,*,#211,.F.) ;
#82=CLOSED_SHELL('Closed Shell',(#122,#139,#149,#180,#192,#216,#238,#250)) ;
#53=VECTOR('Line Direction',#52,1.) ;
#65=VECTOR('Line Direction',#64,1.) ;
#74=VECTOR('Line Direction',#73,1.) ;
#99=VECTOR('Line Direction',#98,1.) ;
#113=VECTOR('Line Direction',#112,1.) ;
#157=VECTOR('Line Direction',#156,1.) ;
#164=VECTOR('Line Direction',#163,1.) ;
#224=VECTOR('Line Direction',#223,1.) ;
#229=VECTOR('Line Direction',#228,1.) ;
#252=ADVANCED_BREP_SHAPE_REPRESENTATION('NONE',(#251),#46) ;
#49=SHAPE_REPRESENTATION(' ',(#48),#46) ;
#122=ADVANCED_FACE('PartBody',(#121),#87,.T.) ;
#139=ADVANCED_FACE('PartBody',(#138),#87,.T.) ;
#149=ADVANCED_FACE('PartBody',(#148),#144,.F.) ;
#180=ADVANCED_FACE('PartBody',(#179),#154,.T.) ;
#192=ADVANCED_FACE('PartBody',(#191),#154,.T.) ;
#216=ADVANCED_FACE('PartBody',(#215),#197,.T.) ;
#238=ADVANCED_FACE('PartBody',(#237),#221,.T.) ;
#250=ADVANCED_FACE('PartBody',(#249),#243,.T.) ;
#4=APPLICATION_PROTOCOL_DEFINITION('international standard','config_control_design',1994,#1) ;
#32=APPROVAL_DATE_TIME(#13,#21) ;
#251=MANIFOLD_SOLID_BREP('PartBody',#82) ;
#11=CALENDAR_DATE(2017,7,3) ;
#30=CC_DESIGN_APPROVAL(#21,(#16,#6,#14)) ;
#18=CC_DESIGN_DATE_AND_TIME_ASSIGNMENT(#13,#17,(#16)) ;
#29=CC_DESIGN_DATE_AND_TIME_ASSIGNMENT(#13,#28,(#14)) ;
#17=DATE_TIME_ROLE('classification_date') ;
#28=DATE_TIME_ROLE('creation_date') ;
#27=CC_DESIGN_PERSON_AND_ORGANIZATION_ASSIGNMENT(#25,#26,(#16)) ;
#33=CC_DESIGN_PERSON_AND_ORGANIZATION_ASSIGNMENT(#25,#34,(#6)) ;
#35=CC_DESIGN_PERSON_AND_ORGANIZATION_ASSIGNMENT(#25,#36,(#6,#14)) ;
#37=CC_DESIGN_PERSON_AND_ORGANIZATION_ASSIGNMENT(#25,#38,(#5)) ;
#26=PERSON_AND_ORGANIZATION_ROLE('classification_officer') ;
#34=PERSON_AND_ORGANIZATION_ROLE('design_supplier') ;
#36=PERSON_AND_ORGANIZATION_ROLE('creator') ;
#38=PERSON_AND_ORGANIZATION_ROLE('design_owner') ;
#39=CC_DESIGN_SECURITY_CLASSIFICATION(#16,(#6)) ;
#91=CIRCLE('generated circle',#90,9.5) ;
#107=CIRCLE('generated circle',#106,6.5) ;
#126=CIRCLE('generated circle',#125,9.5) ;
#131=CIRCLE('generated circle',#130,6.5) ;
#172=CIRCLE('generated circle',#171,9.5) ;
#184=CIRCLE('generated circle',#183,9.5) ;
#201=CIRCLE('generated circle',#200,9.) ;
#210=CIRCLE('generated circle',#209,9.) ;
#87=CONICAL_SURFACE('Cone',#86,6.5,0.523598775598) ;
#221=CONICAL_SURFACE('Cone',#220,0.,0.785398163397) ;
#243=CONICAL_SURFACE('Cone',#242,0.,0.785398163397) ;
#62=SHAPE_REPRESENTATION_RELATIONSHIP(' ',' ',#49,#60) ;
#253=SHAPE_REPRESENTATION_RELATIONSHIP(' ',' ',#49,#252) ;
#154=CYLINDRICAL_SURFACE('generated cylinder',#153,9.5) ;
#3=DESIGN_CONTEXT(' ',#1,'design') ;
#96=EDGE_CURVE('',#93,#95,#91,.T.) ;
#103=EDGE_CURVE('',#93,#102,#100,.F.) ;
#110=EDGE_CURVE('',#102,#109,#107,.T.) ;
#115=EDGE_CURVE('',#95,#109,#114,.F.) ;
#127=EDGE_CURVE('',#95,#93,#126,.T.) ;
#132=EDGE_CURVE('',#109,#102,#131,.T.) ;
#161=EDGE_CURVE('',#160,#93,#158,.F.) ;
#168=EDGE_CURVE('',#167,#95,#165,.F.) ;
#173=EDGE_CURVE('',#160,#167,#172,.T.) ;
#185=EDGE_CURVE('',#167,#160,#184,.T.) ;
#206=EDGE_CURVE('',#203,#205,#201,.T.) ;
#211=EDGE_CURVE('',#205,#203,#210,.T.) ;
#226=EDGE_CURVE('',#203,#167,#225,.T.) ;
#231=EDGE_CURVE('',#205,#160,#230,.T.) ;
#116=EDGE_LOOP('',(#117,#118,#119,#120)) ;
#133=EDGE_LOOP('',(#134,#135,#136,#137)) ;
#145=EDGE_LOOP('',(#146,#147)) ;
#174=EDGE_LOOP('',(#175,#176,#177,#178)) ;
#186=EDGE_LOOP('',(#187,#188,#189,#190)) ;
#212=EDGE_LOOP('',(#213,#214)) ;
#232=EDGE_LOOP('',(#233,#234,#235,#236)) ;
#244=EDGE_LOOP('',(#245,#246,#247,#248)) ;
#121=FACE_OUTER_BOUND('',#116,.T.) ;
#138=FACE_OUTER_BOUND('',#133,.T.) ;
#148=FACE_OUTER_BOUND('',#145,.T.) ;
#179=FACE_OUTER_BOUND('',#174,.T.) ;
#191=FACE_OUTER_BOUND('',#186,.T.) ;
#215=FACE_OUTER_BOUND('',#212,.T.) ;
#237=FACE_OUTER_BOUND('',#232,.T.) ;
#249=FACE_OUTER_BOUND('',#244,.T.) ;
#61=GEOMETRIC_SET('NONE',(#59,#71,#80,#81)) ;
#60=GEOMETRICALLY_BOUNDED_SURFACE_SHAPE_REPRESENTATION('NONE',(#61),#46) ;
#45=UNCERTAINTY_MEASURE_WITH_UNIT(LENGTH_MEASURE(0.005),#41,'distance_accuracy_value','CONFUSED CURVE UNCERTAINTY') ;
#54=LINE('Line',#51,#53) ;
#66=LINE('Line',#63,#65) ;
#75=LINE('Line',#72,#74) ;
#100=LINE('Line',#97,#99) ;
#114=LINE('Line',#111,#113) ;
#158=LINE('Line',#155,#157) ;
#165=LINE('Line',#162,#164) ;
#225=LINE('Line',#222,#224) ;
#230=LINE('Line',#227,#229) ;
#2=MECHANICAL_CONTEXT(' ',#1,'mechanical') ;
#24=PERSONAL_ADDRESS(' ',' ',' ',' ',' ',' ',' ',' ',' ',' ',' ',' ',(#22),' ') ;
#144=PLANE('Plane',#143) ;
#197=PLANE('Plane',#196) ;
#43=PLANE_ANGLE_MEASURE_WITH_UNIT(PLANE_ANGLE_MEASURE(0.0174532925199),#42) ;
#7=PRODUCT_CATEGORY('part',$) ;
#9=PRODUCT_CATEGORY_RELATIONSHIP(' ',' ',#7,#8) ;
#6=PRODUCT_DEFINITION_FORMATION_WITH_SPECIFIED_SOURCE('',' ',#5,.NOT_KNOWN.) ;
#8=PRODUCT_RELATED_PRODUCT_CATEGORY('detail',$,(#5)) ;
#50=SHAPE_DEFINITION_REPRESENTATION(#40,#49) ;
#57=TRIMMED_CURVE('',#54,(#55),(#56),.T.,.CARTESIAN.) ;
#69=TRIMMED_CURVE('',#66,(#67),(#68),.T.,.CARTESIAN.) ;
#78=TRIMMED_CURVE('',#75,(#76),(#77),.T.,.CARTESIAN.) ;
#93=VERTEX_POINT('',#92) ;
#95=VERTEX_POINT('',#94) ;
#102=VERTEX_POINT('',#101) ;
#109=VERTEX_POINT('',#108) ;
#160=VERTEX_POINT('',#159) ;
#167=VERTEX_POINT('',#166) ;
#203=VERTEX_POINT('',#202) ;
#205=VERTEX_POINT('',#204) ;
#41=(LENGTH_UNIT()NAMED_UNIT(*)SI_UNIT(.MILLI.,.METRE.)) ;
#42=(NAMED_UNIT(*)PLANE_ANGLE_UNIT()SI_UNIT($,.RADIAN.)) ;
#44=(NAMED_UNIT(*)SI_UNIT($,.STERADIAN.)SOLID_ANGLE_UNIT()) ;
#46=(GEOMETRIC_REPRESENTATION_CONTEXT(3)GLOBAL_UNCERTAINTY_ASSIGNED_CONTEXT((#45))GLOBAL_UNIT_ASSIGNED_CONTEXT((#41,#42,#44))REPRESENTATION_CONTEXT(' ',' ')) ;
ENDSEC;
END-ISO-10303-21;
